  0
SECTION
  2
HEADER
  9
$ACADVER
  1
AC1015
  9
$ACADMAINTVER
 70
     6
  9
$DWGCODEPAGE
  3
ANSI_1254
  9
$INSBASE
 10
0.0
 20
0.0
 30
0.0
  9
$EXTMIN
 10
0.0
 20
0.0
 30
0.0
  9
$EXTMAX
 10
279.4
 20
215.9
 30
0.0
  9
$LIMMIN
 10
0.0
 20
0.0
  9
$LIMMAX
 10
279.4
 20
215.9
  9
$ORTHOMODE
 70
     0
  9
$REGENMODE
 70
     1
  9
$FILLMODE
 70
     1
  9
$QTEXTMODE
 70
     0
  9
$MIRRTEXT
 70
     1
  9
$LTSCALE
 40
1.0
  9
$ATTMODE
 70
     1
  9
$TEXTSIZE
 40
3.5
  9
$TRACEWID
 40
1.0
  9
$TEXTSTYLE
  7
Standard
  9
$CLAYER
  8
0
  9
$CELTYPE
  6
ByLayer
  9
$CECOLOR
 62
   256
  9
$CELTSCALE
 40
1.0
  9
$DISPSILH
 70
     0
  9
$DIMSCALE
 40
1.0
  9
$DIMASZ
 40
3.5
  9
$DIMEXO
 40
1.0
  9
$DIMDLI
 40
3.75
  9
$DIMRND
 40
0.0
  9
$DIMDLE
 40
0.0
  9
$DIMEXE
 40
1.0
  9
$DIMTP
 40
0.0
  9
$DIMTM
 40
0.0
  9
$DIMTXT
 40
3.5
  9
$DIMCEN
 40
2.5
  9
$DIMTSZ
 40
0.0
  9
$DIMTOL
 70
     0
  9
$DIMLIM
 70
     0
  9
$DIMTIH
 70
     1
  9
$DIMTOH
 70
     1
  9
$DIMSE1
 70
     0
  9
$DIMSE2
 70
     0
  9
$DIMTAD
 70
     1
  9
$DIMZIN
 70
     0
  9
$DIMBLK
  1

  9
$DIMASO
 70
     1
  9
$DIMSHO
 70
     1
  9
$DIMPOST
  1

  9
$DIMAPOST
  1

  9
$DIMALT
 70
     0
  9
$DIMALTD
 70
     3
  9
$DIMALTF
 40
0.0393700787
  9
$DIMLFAC
 40
1.0
  9
$DIMTOFL
 70
     1
  9
$DIMTVP
 40
0.0
  9
$DIMTIX
 70
     0
  9
$DIMSOXD
 70
     0
  9
$DIMSAH
 70
     0
  9
$DIMBLK1
  1

  9
$DIMBLK2
  1

  9
$DIMSTYLE
  2
ISO-25
  9
$DIMCLRD
 70
     0
  9
$DIMCLRE
 70
     0
  9
$DIMCLRT
 70
     0
  9
$DIMTFAC
 40
1.0
  9
$DIMGAP
 40
1.524
  9
$DIMJUST
 70
     0
  9
$DIMSD1
 70
     0
  9
$DIMSD2
 70
     0
  9
$DIMTOLJ
 70
     0
  9
$DIMTZIN
 70
     0
  9
$DIMALTZ
 70
     0
  9
$DIMALTTZ
 70
     0
  9
$DIMUPT
 70
     0
  9
$DIMDEC
 70
     2
  9
$DIMTDEC
 70
     2
  9
$DIMALTU
 70
     2
  9
$DIMALTTD
 70
     3
  9
$DIMTXSTY
  7
Standard
  9
$DIMAUNIT
 70
     0
  9
$DIMADEC
 70
     2
  9
$DIMALTRND
 40
0.0
  9
$DIMAZIN
 70
     0
  9
$DIMDSEP
 70
    44
  9
$DIMATFIT
 70
     3
  9
$DIMFRAC
 70
     0
  9
$DIMLDRBLK
  1

  9
$DIMLUNIT
 70
     2
  9
$DIMLWD
 70
    -2
  9
$DIMLWE
 70
    -2
  9
$DIMTMOVE
 70
     0
  9
$LUNITS
 70
     2
  9
$LUPREC
 70
     2
  9
$SKETCHINC
 40
1.0
  9
$FILLETRAD
 40
10.0
  9
$AUNITS
 70
     0
  9
$AUPREC
 70
     2
  9
$MENU
  1
.
  9
$ELEVATION
 40
0.0
  9
$PELEVATION
 40
0.0
  9
$THICKNESS
 40
0.0
  9
$LIMCHECK
 70
     0
  9
$CHAMFERA
 40
0.0
  9
$CHAMFERB
 40
0.0
  9
$CHAMFERC
 40
0.0
  9
$CHAMFERD
 40
0.0
  9
$SKPOLY
 70
     0
  9
$TDCREATE
 40
2458985.683327523
  9
$TDUCREATE
 40
2458985.558327523
  9
$TDUPDATE
 40
2458985.68332787
  9
$TDUUPDATE
 40
2458985.55832787
  9
$TDINDWG
 40
0.0000000116
  9
$TDUSRTIMER
 40
0.0000000116
  9
$USRTIMER
 70
     1
  9
$ANGBASE
 50
0.0
  9
$ANGDIR
 70
     0
  9
$PDMODE
 70
     0
  9
$PDSIZE
 40
-1.0
  9
$PLINEWID
 40
0.0
  9
$SPLFRAME
 70
     0
  9
$SPLINETYPE
 70
     6
  9
$SPLINESEGS
 70
     8
  9
$HANDSEED
  5
CB
  9
$SURFTAB1
 70
     6
  9
$SURFTAB2
 70
     6
  9
$SURFTYPE
 70
     6
  9
$SURFU
 70
     6
  9
$SURFV
 70
     6
  9
$UCSBASE
  2

  9
$UCSNAME
  2

  9
$UCSORG
 10
0.0
 20
0.0
 30
0.0
  9
$UCSXDIR
 10
1.0
 20
0.0
 30
0.0
  9
$UCSYDIR
 10
0.0
 20
1.0
 30
0.0
  9
$UCSORTHOREF
  2

  9
$UCSORTHOVIEW
 70
     0
  9
$UCSORGTOP
 10
0.0
 20
0.0
 30
0.0
  9
$UCSORGBOTTOM
 10
0.0
 20
0.0
 30
0.0
  9
$UCSORGLEFT
 10
0.0
 20
0.0
 30
0.0
  9
$UCSORGRIGHT
 10
0.0
 20
0.0
 30
0.0
  9
$UCSORGFRONT
 10
0.0
 20
0.0
 30
0.0
  9
$UCSORGBACK
 10
0.0
 20
0.0
 30
0.0
  9
$PUCSBASE
  2

  9
$PUCSNAME
  2

  9
$PUCSORG
 10
0.0
 20
0.0
 30
0.0
  9
$PUCSXDIR
 10
1.0
 20
0.0
 30
0.0
  9
$PUCSYDIR
 10
0.0
 20
1.0
 30
0.0
  9
$PUCSORTHOREF
  2

  9
$PUCSORTHOVIEW
 70
     0
  9
$PUCSORGTOP
 10
0.0
 20
0.0
 30
0.0
  9
$PUCSORGBOTTOM
 10
0.0
 20
0.0
 30
0.0
  9
$PUCSORGLEFT
 10
0.0
 20
0.0
 30
0.0
  9
$PUCSORGRIGHT
 10
0.0
 20
0.0
 30
0.0
  9
$PUCSORGFRONT
 10
0.0
 20
0.0
 30
0.0
  9
$PUCSORGBACK
 10
0.0
 20
0.0
 30
0.0
  9
$USERI1
 70
     0
  9
$USERI2
 70
     0
  9
$USERI3
 70
     0
  9
$USERI4
 70
     0
  9
$USERI5
 70
     0
  9
$USERR1
 40
0.0
  9
$USERR2
 40
0.0
  9
$USERR3
 40
0.0
  9
$USERR4
 40
0.0
  9
$USERR5
 40
0.0
  9
$WORLDVIEW
 70
     1
  9
$SHADEDGE
 70
     3
  9
$SHADEDIF
 70
    70
  9
$TILEMODE
 70
     1
  9
$MAXACTVP
 70
    64
  9
$PINSBASE
 10
0.0
 20
0.0
 30
0.0
  9
$PLIMCHECK
 70
     0
  9
$PEXTMIN
 10
1.0000000000E+20
 20
1.0000000000E+20
 30
1.0000000000E+20
  9
$PEXTMAX
 10
-1.0000000000E+20
 20
-1.0000000000E+20
 30
-1.0000000000E+20
  9
$PLIMMIN
 10
0.0
 20
0.0
  9
$PLIMMAX
 10
420.0
 20
297.0
  9
$UNITMODE
 70
     0
  9
$VISRETAIN
 70
     1
  9
$PLINEGEN
 70
     0
  9
$PSLTSCALE
 70
     1
  9
$TREEDEPTH
 70
  3020
  9
$CMLSTYLE
  2
Standard
  9
$CMLJUST
 70
     0
  9
$CMLSCALE
 40
20.0
  9
$PROXYGRAPHICS
 70
     1
  9
$MEASUREMENT
 70
     1
  9
$CELWEIGHT
370
    -1
  9
$ENDCAPS
280
     0
  9
$JOINSTYLE
280
     0
  9
$LWDISPLAY
290
     1
  9
$INSUNITS
 70
     4
  9
$HYPERLINKBASE
  1

  9
$STYLESHEET
  1

  9
$XEDIT
290
     1
  9
$CEPSNTYPE
380
     0
  9
$PSTYLEMODE
290
     1
  9
$FINGERPRINTGUID
  2
{bd05a1ae-76d7-47b4-9d60-ac237ba629a7}
  9
$VERSIONGUID
  2
{FAEB1C32-E019-11D5-929B-00C0DF256EC4}
  9
$EXTNAMES
290
     1
  9
$PSVPSCALE
 40
0.0
  9
$OLESTARTUP
290
     0
  0
ENDSEC
  0
SECTION
  2
CLASSES
  0
CLASS
  1
ACDBDICTIONARYWDFLT
  2
AcDbDictionaryWithDefault
  3
ObjectDBX Classes
 90
        0
280
     0
281
     0
  0
CLASS
  1
VISUALSTYLE
  2
AcDbVisualStyle
  3
ObjectDBX Classes
 90
     4095
280
     0
281
     0
  0
CLASS
  1
MATERIAL
  2
AcDbMaterial
  3
ObjectDBX Classes
 90
     1153
280
     0
281
     0
  0
CLASS
  1
SCALE
  2
AcDbScale
  3
ObjectDBX Classes
 90
     1153
280
     0
281
     0
  0
CLASS
  1
TABLESTYLE
  2
AcDbTableStyle
  3
ObjectDBX Classes
 90
     4095
280
     0
281
     0
  0
CLASS
  1
MLEADERSTYLE
  2
AcDbMLeaderStyle
  3
ACDB_MLEADERSTYLE_CLASS
 90
     4095
280
     0
281
     0
  0
CLASS
  1
SUN
  2
AcDbSun
  3
SCENEOE
 90
     1153
280
     0
281
     0
  0
CLASS
  1
ACDBPLACEHOLDER
  2
AcDbPlaceHolder
  3
ObjectDBX Classes
 90
        0
280
     0
281
     0
  0
CLASS
  1
LAYOUT
  2
AcDbLayout
  3
ObjectDBX Classes
 90
        0
280
     0
281
     0
  0
ENDSEC
  0
SECTION
  2
TABLES
  0
TABLE
  2
VPORT
  5
8
330
0
100
AcDbSymbolTable
 70
     1
  0
VPORT
  5
29
330
8
100
AcDbSymbolTableRecord
100
AcDbViewportTableRecord
  2
*Active
 70
     0
 10
0.0
 20
0.0
 11
1.0
 21
1.0
 12
139.7
 22
107.95
 13
0.0
 23
0.0
 14
10.0
 24
10.0
 15
10.0
 25
10.0
 16
0.0
 26
0.0
 36
1.0
 17
0.0
 27
0.0
 37
0.0
 40
215.9
 41
1.2941176471
 42
50.0
 43
0.0
 44
0.0
 50
0.0
 51
0.0
 71
     0
 72
  2000
 73
     1
 74
     3
 75
     0
 76
     0
 77
     0
 78
     0
281
     0
 65
     1
110
0.0
120
0.0
130
0.0
111
1.0
121
0.0
131
0.0
112
0.0
122
1.0
132
0.0
 79
     0
146
0.0
  0
ENDTAB
  0
TABLE
  2
LTYPE
  5
5
330
0
100
AcDbSymbolTable
 70
     6
  0
LTYPE
  5
14
330
5
100
AcDbSymbolTableRecord
100
AcDbLinetypeTableRecord
  2
ByBlock
 70
     0
  3

 72
    65
 73
     0
 40
0.0
  0
LTYPE
  5
15
330
5
100
AcDbSymbolTableRecord
100
AcDbLinetypeTableRecord
  2
ByLayer
 70
     0
  3

 72
    65
 73
     0
 40
0.0
  0
LTYPE
  5
16
330
5
100
AcDbSymbolTableRecord
100
AcDbLinetypeTableRecord
  2
Continuous
 70
     0
  3
Solid line
 72
    65
 73
     0
 40
0.0
  0
LTYPE
  5
6E
330
5
100
AcDbSymbolTableRecord
100
AcDbLinetypeTableRecord
  2
HIDDEN
 70
     0
  3
Hidden __ __ __ __ __ __ __ __ __ __ __ __ __ __
 72
    65
 73
     2
 40
1.905
 49
1.27
 74
     0
 49
-0.635
 74
     0
  0
LTYPE
  5
6F
330
5
100
AcDbSymbolTableRecord
100
AcDbLinetypeTableRecord
  2
PHANTOM
 70
     0
  3
Phantom ______  __  __  ______  __  __  ______
 72
    65
 73
     6
 40
12.7
 49
6.35
 74
     0
 49
-1.27
 74
     0
 49
1.27
 74
     0
 49
-1.27
 74
     0
 49
1.27
 74
     0
 49
-1.27
 74
     0
  0
LTYPE
  5
70
330
5
100
AcDbSymbolTableRecord
100
AcDbLinetypeTableRecord
  2
CENTER
 70
     0
  3
Center ____ _ ____ _ ____ _ ____ _ ____ _ ____
 72
    65
 73
     4
 40
10.16
 49
6.35
 74
     0
 49
-1.27
 74
     0
 49
1.27
 74
     0
 49
-1.27
 74
     0
  0
LTYPE
  5
71
330
5
100
AcDbSymbolTableRecord
100
AcDbLinetypeTableRecord
  2
CENTERX2
 70
     0
  3
Center (2x) ________  __  ________  __  _____
 72
    65
 73
     4
 40
20.32
 49
12.7
 74
     0
 49
-2.54
 74
     0
 49
2.54
 74
     0
 49
-2.54
 74
     0
  0
LTYPE
  5
72
330
5
100
AcDbSymbolTableRecord
100
AcDbLinetypeTableRecord
  2
DOT2
 70
     0
  3
Dot (.5x) ........................................
 72
    65
 73
     2
 40
0.635
 49
0.0
 74
     0
 49
-0.635
 74
     0
  0
ENDTAB
  0
TABLE
  2
LAYER
  5
2
330
0
100
AcDbSymbolTable
 70
    17
  0
LAYER
  5
10
330
2
100
AcDbSymbolTableRecord
100
AcDbLayerTableRecord
  2
0
 70
     0
 62
     7
  6
Continuous
370
    -3
390
F
  0
LAYER
  5
73
330
2
100
AcDbSymbolTableRecord
100
AcDbLayerTableRecord
  2
FORMAT
 70
     0
 62
     7
  6
Continuous
370
    -3
390
F
  0
LAYER
  5
74
330
2
100
AcDbSymbolTableRecord
100
AcDbLayerTableRecord
  2
YARDIMCI_GEOMETRI
 70
     0
 62
    -6
  6
Continuous
290
     0
370
    -3
390
F
  0
LAYER
  5
75
330
2
100
AcDbSymbolTableRecord
100
AcDbLayerTableRecord
  2
SAYFA_CERCEVESI
 70
     0
 62
     7
  6
Continuous
370
    25
390
F
  0
LAYER
  5
76
330
2
100
AcDbSymbolTableRecord
100
AcDbLayerTableRecord
  2
ANTET
 70
     0
 62
     7
  6
Continuous
370
    -3
390
F
  0
LAYER
  5
77
330
2
100
AcDbSymbolTableRecord
100
AcDbLayerTableRecord
  2
OLCU
 70
     0
 62
   150
  6
Continuous
370
    -3
390
F
  0
LAYER
  5
78
330
2
100
AcDbSymbolTableRecord
100
AcDbLayerTableRecord
  2
METIN
 70
     0
 62
    96
  6
Continuous
370
    -3
390
F
  0
LAYER
  5
79
330
2
100
AcDbSymbolTableRecord
100
AcDbLayerTableRecord
  2
BALON
 70
     0
 62
     5
  6
Continuous
370
    -3
390
F
  0
LAYER
  5
7A
330
2
100
AcDbSymbolTableRecord
100
AcDbLayerTableRecord
  2
VURGU
 70
     0
 62
     7
  6
Continuous
370
    -3
390
F
  0
LAYER
  5
7B
330
2
100
AcDbSymbolTableRecord
100
AcDbLayerTableRecord
  2
SILIK
 70
     0
 62
     7
  6
Continuous
370
    -3
390
F
  0
LAYER
  5
7C
330
2
100
AcDbSymbolTableRecord
100
AcDbLayerTableRecord
  2
MODEL
 70
     0
 62
     7
  6
Continuous
370
    -3
390
F
  0
LAYER
  5
7D
330
2
100
AcDbSymbolTableRecord
100
AcDbLayerTableRecord
  2
DETAYLANDıRMA
 70
     0
 62
   190
  6
Continuous
370
    -3
390
F
  0
LAYER
  5
7E
330
2
100
AcDbSymbolTableRecord
100
AcDbLayerTableRecord
  2
TOLERANS
 70
     0
 62
   230
  6
Continuous
370
    -3
390
F
  0
LAYER
  5
7F
330
2
100
AcDbSymbolTableRecord
100
AcDbLayerTableRecord
  2
MERKEZ_CIZGILERI
 70
     0
 62
    30
  6
Continuous
370
    -3
390
F
  0
LAYER
  5
80
330
2
100
AcDbSymbolTableRecord
100
AcDbLayerTableRecord
  2
KESIT-DETAY_CIZGILERI
 70
     0
 62
     7
  6
Continuous
370
    -3
390
F
  0
LAYER
  5
81
330
2
100
AcDbSymbolTableRecord
100
AcDbLayerTableRecord
  2
\U+041E\U+0421\U+0415\U+0412\U+042B\U+0415
 70
     0
 62
     7
  6
Continuous
370
    -3
390
F
  0
LAYER
  5
82
330
2
100
AcDbSymbolTableRecord
100
AcDbLayerTableRecord
  2
\U+0412\U+041E\U+0414\U+042F\U+041D\U+042B\U+0415_\U+0417\U+041D\U+0410\U+041A\U+0418
 70
     0
 62
    11
  6
Continuous
370
    -3
390
F
  0
ENDTAB
  0
TABLE
  2
STYLE
  5
3
330
0
100
AcDbSymbolTable
 70
     1
  0
STYLE
  5
11
330
3
100
AcDbSymbolTableRecord
100
AcDbTextStyleTableRecord
  2
Standard
 70
     0
 40
0.0
 41
1.0
 50
0.0
 71
     0
 42
3.5
  3
txt
  4

  0
ENDTAB
  0
TABLE
  2
VIEW
  5
6
330
0
100
AcDbSymbolTable
 70
     0
  0
ENDTAB
  0
TABLE
  2
UCS
  5
7
330
0
100
AcDbSymbolTable
 70
     0
  0
ENDTAB
  0
TABLE
  2
APPID
  5
9
330
0
100
AcDbSymbolTable
 70
     1
  0
APPID
  5
12
330
9
100
AcDbSymbolTableRecord
100
AcDbRegAppTableRecord
  2
ACAD
 70
     0
  0
ENDTAB
  0
TABLE
  2
DIMSTYLE
  5
A
330
0
100
AcDbSymbolTable
 70
     1
100
AcDbDimStyleTable
  0
DIMSTYLE
105
27
330
A
100
AcDbSymbolTableRecord
100
AcDbDimStyleTableRecord
  2
ISO-25
 70
     0
 41
2.5
 42
0.625
 43
3.75
 44
1.25
 73
     0
 74
     0
 77
     1
 78
     8
140
2.5
141
2.5
143
0.0393700787
147
0.625
171
     3
172
     1
178
     0
271
     2
272
     2
274
     3
278
    44
283
     0
284
     8
340
11
  0
ENDTAB
  0
TABLE
  2
BLOCK_RECORD
  5
1
330
0
100
AcDbSymbolTable
 70
     3
  0
BLOCK_RECORD
  5
1F
330
1
100
AcDbSymbolTableRecord
100
AcDbBlockTableRecord
  2
*Model_Space
340
22
  0
BLOCK_RECORD
  5
1B
330
1
100
AcDbSymbolTableRecord
100
AcDbBlockTableRecord
  2
*Paper_Space
340
1E
  0
BLOCK_RECORD
  5
23
330
1
100
AcDbSymbolTableRecord
100
AcDbBlockTableRecord
  2
*Paper_Space0
340
26
  0
BLOCK_RECORD
  5
88
330
1
100
AcDbSymbolTableRecord
100
AcDbBlockTableRecord
  2
SW_CENTERMARKSYMBOL_0
340
0
102
{BLKREFS
331
93
102
}
  0
BLOCK_RECORD
  5
B2
330
1
100
AcDbSymbolTableRecord
100
AcDbBlockTableRecord
  2
SW_CENTERMARKSYMBOL_1
340
0
102
{BLKREFS
331
BD
102
}
  0
ENDTAB
  0
ENDSEC
  0
SECTION
  2
BLOCKS
  0
BLOCK
  5
20
330
1F
100
AcDbEntity
  8
0
100
AcDbBlockBegin
  2
*Model_Space
 70
     0
 10
0.0
 20
0.0
 30
0.0
  3
*Model_Space
  1

  0
ENDBLK
  5
21
330
1F
100
AcDbEntity
  8
0
100
AcDbBlockEnd
  0
BLOCK
  5
1C
330
1B
100
AcDbEntity
 67
     1
  8
0
100
AcDbBlockBegin
  2
*Paper_Space
 70
     0
 10
0.0
 20
0.0
 30
0.0
  3
*Paper_Space
  1

  0
ENDBLK
  5
1D
330
1B
100
AcDbEntity
 67
     1
  8
0
100
AcDbBlockEnd
  0
BLOCK
  5
24
330
23
100
AcDbEntity
  8
0
100
AcDbBlockBegin
  2
*Paper_Space0
 70
     0
 10
0.0
 20
0.0
 30
0.0
  3
*Paper_Space0
  1

  0
ENDBLK
  5
25
330
23
100
AcDbEntity
  8
0
100
AcDbBlockEnd
  0
BLOCK
  5
89
330
88
100
AcDbEntity
  8
0
100
AcDbBlockBegin
  2
SW_CENTERMARKSYMBOL_0
 70
     0
 10
0.0
 20
0.0
 30
0.0
  3
SW_CENTERMARKSYMBOL_0
  1

  0
LINE
  5
8B
330
88
100
AcDbEntity
  8
FORMAT
 62
     0
100
AcDbLine
 10
0.0
 20
0.0
 30
0.0
 11
0.0
 21
2.5
 31
0.0
  0
LINE
  5
8C
330
88
100
AcDbEntity
  8
FORMAT
 62
     0
100
AcDbLine
 10
0.0
 20
0.0
 30
0.0
 11
-2.5
 21
0.0
 31
0.0
  0
LINE
  5
8D
330
88
100
AcDbEntity
  8
FORMAT
 62
     0
100
AcDbLine
 10
0.0
 20
0.0
 30
0.0
 11
0.0
 21
-2.5
 31
0.0
  0
LINE
  5
8E
330
88
100
AcDbEntity
  8
FORMAT
 62
     0
100
AcDbLine
 10
0.0
 20
0.0
 30
0.0
 11
2.5
 21
0.0
 31
0.0
  0
LINE
  5
8F
330
88
100
AcDbEntity
  8
FORMAT
 62
     0
100
AcDbLine
 10
0.0
 20
5.0
 30
0.0
 11
0.0
 21
127.5
 31
0.0
  0
LINE
  5
90
330
88
100
AcDbEntity
  8
FORMAT
 62
     0
100
AcDbLine
 10
-5.0
 20
0.0
 30
0.0
 11
-127.5
 21
0.0
 31
0.0
  0
LINE
  5
91
330
88
100
AcDbEntity
  8
FORMAT
 62
     0
100
AcDbLine
 10
0.0
 20
-5.0
 30
0.0
 11
0.0
 21
-127.5
 31
0.0
  0
LINE
  5
92
330
88
100
AcDbEntity
  8
FORMAT
 62
     0
100
AcDbLine
 10
5.0
 20
0.0
 30
0.0
 11
127.5
 21
0.0
 31
0.0
  0
ENDBLK
  5
8A
330
88
100
AcDbEntity
  8
0
100
AcDbBlockEnd
  0
BLOCK
  5
B3
330
B2
100
AcDbEntity
  8
0
100
AcDbBlockBegin
  2
SW_CENTERMARKSYMBOL_1
 70
     0
 10
0.0
 20
0.0
 30
0.0
  3
SW_CENTERMARKSYMBOL_1
  1

  0
LINE
  5
B5
330
B2
100
AcDbEntity
  8
FORMAT
 62
     0
100
AcDbLine
 10
0.0
 20
0.0
 30
0.0
 11
0.0
 21
2.5
 31
0.0
  0
LINE
  5
B6
330
B2
100
AcDbEntity
  8
FORMAT
 62
     0
100
AcDbLine
 10
0.0
 20
0.0
 30
0.0
 11
-2.5
 21
0.0
 31
0.0
  0
LINE
  5
B7
330
B2
100
AcDbEntity
  8
FORMAT
 62
     0
100
AcDbLine
 10
0.0
 20
0.0
 30
0.0
 11
0.0
 21
-2.5
 31
0.0
  0
LINE
  5
B8
330
B2
100
AcDbEntity
  8
FORMAT
 62
     0
100
AcDbLine
 10
0.0
 20
0.0
 30
0.0
 11
2.5
 21
0.0
 31
0.0
  0
LINE
  5
B9
330
B2
100
AcDbEntity
  8
FORMAT
 62
     0
100
AcDbLine
 10
0.0
 20
5.0
 30
0.0
 11
0.0
 21
57.5
 31
0.0
  0
LINE
  5
BA
330
B2
100
AcDbEntity
  8
FORMAT
 62
     0
100
AcDbLine
 10
-5.0
 20
0.0
 30
0.0
 11
-57.5
 21
0.0
 31
0.0
  0
LINE
  5
BB
330
B2
100
AcDbEntity
  8
FORMAT
 62
     0
100
AcDbLine
 10
0.0
 20
-5.0
 30
0.0
 11
0.0
 21
-57.5
 31
0.0
  0
LINE
  5
BC
330
B2
100
AcDbEntity
  8
FORMAT
 62
     0
100
AcDbLine
 10
5.0
 20
0.0
 30
0.0
 11
57.5
 21
0.0
 31
0.0
  0
ENDBLK
  5
B4
330
B2
100
AcDbEntity
  8
0
100
AcDbBlockEnd
  0
ENDSEC
  0
SECTION
  2
ENTITIES
  0
LINE
  5
83
330
1F
100
AcDbEntity
  8
0
  6
Continuous
 62
     7
370
    25
100
AcDbLine
 10
186.9676154186
 20
54.3862139987
 30
0.0
 11
325.6770268117
 21
54.3862139987
 31
0.0
  0
LINE
  5
84
330
1F
100
AcDbEntity
  8
0
  6
Continuous
 62
     7
370
    25
100
AcDbLine
 10
325.6770268117
 20
164.3862139987
 30
0.0
 11
186.9612888375
 21
164.3862139987
 31
0.0
  0
CIRCLE
  5
85
330
1F
100
AcDbEntity
  8
0
  6
Continuous
 62
     7
370
    25
100
AcDbCircle
 10
74.6770268117
 20
109.3862139987
 30
0.0
 40
102.3
  0
CIRCLE
  5
86
330
1F
100
AcDbEntity
  8
0
  6
Continuous
 62
     7
370
    25
100
AcDbCircle
 10
74.6770268117
 20
109.3862139987
 30
0.0
 40
125.0
  0
LINE
  5
87
330
1F
100
AcDbEntity
  8
0
  6
Continuous
 62
     7
370
    25
100
AcDbLine
 10
325.6770268117
 20
164.3862139987
 30
0.0
 11
325.6770268117
 21
54.3862139987
 31
0.0
  0
INSERT
  5
93
330
1F
100
AcDbEntity
  8
FORMAT
100
AcDbBlockReference
  2
SW_CENTERMARKSYMBOL_0
 10
74.6770268117
 20
109.3862139987
 30
0.0
  0
LINE
  5
94
330
1F
100
AcDbEntity
  8
0
  6
Continuous
 62
     7
370
    25
100
AcDbLine
 10
-50.3229731883
 20
-77.9448683603
 30
0.0
 11
-50.3229731883
 21
-667.9448683603
 31
0.0
  0
LINE
  5
95
330
1F
100
AcDbEntity
  8
0
  6
Continuous
 62
     7
370
    25
100
AcDbLine
 10
199.6770268117
 20
-317.9926980502
 30
0.0
 11
199.6770268117
 21
-77.9448683603
 31
0.0
  0
LINE
  5
96
330
1F
100
AcDbEntity
  8
0
  6
Continuous
 62
     7
370
    25
100
AcDbLine
 10
199.6770268117
 20
-667.9448683603
 30
0.0
 11
199.6770268117
 21
-427.9448683603
 31
0.0
  0
LINE
  5
97
330
1F
100
AcDbEntity
  8
0
  6
Continuous
 62
     7
370
    25
100
AcDbLine
 10
199.6770268117
 20
-427.9448683603
 30
0.0
 11
325.6770268117
 21
-427.9448683603
 31
0.0
  0
LINE
  5
98
330
1F
100
AcDbEntity
  8
0
  6
Continuous
 62
     7
370
    25
100
AcDbLine
 10
325.6770268117
 20
-317.9448683603
 30
0.0
 11
199.6559357583
 21
-317.9448683603
 31
0.0
  0
LWPOLYLINE
  5
99
330
1F
100
AcDbEntity
  8
0
  6
Continuous
 62
     7
370
    25
100
AcDbPolyline
 90
       37
 70
   128
 43
0.0
 10
199.6559355448
 20
-317.9926980502
 10
199.6520202358
 20
-318.001458604
 10
199.4777486218
 20
-318.3992895814
 10
199.1749118438
 20
-319.0956226372
 10
198.7433182874
 20
-320.1012814216
 10
198.1756580638
 20
-321.4480081159
 10
197.4962380683
 20
-323.0995209977
 10
195.8567941654
 20
-327.2881490748
 10
194.9135390755
 20
-329.8540062747
 10
193.929006942
 20
-332.6827923455
 10
192.8735980599
 20
-335.9256325002
 10
191.8250237401
 20
-339.4239318528
 10
190.7839371725
 20
-343.2667634208
 10
189.810400074
 20
-347.3383528073
 10
188.9427948182
 20
-351.5763696625
 10
188.200102159
 20
-355.9893785027
 10
187.59227097
 20
-360.7076452625
 10
187.1706211279
 20
-365.5415743507
 10
186.9687630839
 20
-369.8864653767
 10
186.934394217
 20
-374.2550350567
 10
187.0774584716
 20
-378.7560167565
 10
187.3950829532
 20
-383.2093790808
 10
188.3891582128
 20
-391.1231198657
 10
189.8573986096
 20
-398.7618791769
 10
191.6955404853
 20
-406.0104477804
 10
192.7015907221
 20
-409.4111813841
 10
193.718153239
 20
-412.5780587579
 10
194.7767345569
 20
-415.6525230164
 10
195.7916992484
 20
-418.4285344335
 10
196.7625193065
 20
-420.9540601883
 10
197.6310809281
 20
-423.1215504313
 10
198.3416758782
 20
-424.8386722013
 10
198.9161686576
 20
-426.1930079203
 10
199.3487645044
 20
-427.1949875714
 10
199.6049881871
 20
-427.780947117
 10
199.6770268117
 20
-427.9448683603
 10
199.6770268117
 20
-427.9448683603
  0
LINE
  5
9A
330
1F
100
AcDbEntity
  8
0
  6
Continuous
 62
     7
370
    25
100
AcDbLine
 10
199.6770268117
 20
-667.9448683603
 30
0.0
 11
-50.3229731883
 21
-667.9448683603
 31
0.0
  0
LINE
  5
9B
330
1F
100
AcDbEntity
  8
0
  6
Continuous
 62
     7
370
    25
100
AcDbLine
 10
199.6770268117
 20
-77.9448683603
 30
0.0
 11
-50.3229731883
 21
-77.9448683603
 31
0.0
  0
LINE
  5
9C
330
1F
100
AcDbEntity
  8
0
  6
Continuous
 62
     7
370
    25
100
AcDbLine
 10
325.6770268117
 20
-317.9448683603
 30
0.0
 11
325.6770268117
 21
-427.9448683603
 31
0.0
  0
LINE
  5
9D
330
1F
100
AcDbEntity
  8
0
  6
Continuous
 62
     7
370
    25
100
AcDbLine
 10
199.6770268117
 20
668.1464400068
 30
0.0
 11
199.6770268117
 21
908.1464400068
 31
0.0
  0
LINE
  5
9E
330
1F
100
AcDbEntity
  8
0
  6
Continuous
 62
     7
370
    25
100
AcDbLine
 10
199.6770268117
 20
318.1464400068
 30
0.0
 11
199.6770268117
 21
558.1936933277
 31
0.0
  0
LINE
  5
9F
330
1F
100
AcDbEntity
  8
0
  6
Continuous
 62
     7
370
    25
100
AcDbLine
 10
-50.3229731883
 20
908.1464400068
 30
0.0
 11
-50.3229731883
 21
318.1464400068
 31
0.0
  0
LINE
  5
A0
330
1F
100
AcDbEntity
  8
0
  6
Continuous
 62
     7
370
    25
100
AcDbLine
 10
199.6562429088
 20
558.1464400068
 30
0.0
 11
325.6770268117
 21
558.1464400068
 31
0.0
  0
LINE
  5
A1
330
1F
100
AcDbEntity
  8
0
  6
Continuous
 62
     7
370
    25
100
AcDbLine
 10
325.6770268117
 20
668.1464400068
 30
0.0
 11
199.6770268117
 21
668.1464400068
 31
0.0
  0
SPLINE
  5
A2
330
1F
100
AcDbEntity
  8
0
  6
Continuous
 62
     7
370
    25
100
AcDbSpline
210
0.0
220
0.0
230
1.0
 70
     8
 71
     3
 72
    44
 73
    40
 74
     0
 42
0.000000001
 43
0.00000001
 40
0.0
 40
0.0
 40
0.0
 40
0.0
 40
0.0246975137950913
 40
0.0495784791427684
 40
0.0750302594867341
 40
0.1006745535293426
 40
0.1253698687468694
 40
0.1502280169608775
 40
0.1755791026319799
 40
0.2010923835301301
 40
0.2270365323824174
 40
0.2531441808511512
 40
0.279759467117207
 40
0.3065494505194057
 40
0.3338633724062381
 40
0.3613769605210032
 40
0.3895503123909168
 40
0.4179677193714647
 40
0.4438041905563436
 40
0.4698492312592752
 40
0.4965747402648908
 40
0.5235430017921812
 40
0.5472070595950372
 40
0.5710348974054322
 40
0.5953619357409216
 40
0.6198534135275869
 40
0.668465864523108
 40
0.7182583706783402
 40
0.7447853835760277
 40
0.7714847596893528
 40
0.7987301111452637
 40
0.8261681067814033
 40
0.8533535325032612
 40
0.8807459642688593
 40
0.9088217298944179
 40
0.9371476815302635
 40
0.9624553182934019
 40
0.9879579626802995
 40
0.9999999999999999
 40
0.9999999999999999
 40
0.9999999999999999
 40
0.9999999999999999
 10
199.6770268116744
 20
668.1464400068113
 30
0.0
 10
199.6625940114643
 20
668.1136789662277
 30
0.0
 10
199.6336212051272
 20
668.0479135381466
 30
0.0
 10
199.398739701132
 20
667.5121798327126
 30
0.0
 10
199.0233811395991
 20
666.6469800232475
 30
0.0
 10
198.5055317747544
 20
665.4342349601992
 30
0.0
 10
197.8686038387334
 20
663.9098235533022
 30
0.0
 10
197.1274994174789
 20
662.0873333274484
 30
0.0
 10
196.2869238133208
 20
659.9488299478617
 30
0.0
 10
195.3604882444188
 20
657.4911693960987
 30
0.0
 10
194.3716075419424
 20
654.7310001576668
 30
0.0
 10
193.3381264399509
 20
651.6630586880134
 30
0.0
 10
192.2880261679902
 20
648.3043531334347
 30
0.0
 10
191.2441586984338
 20
644.6478425970023
 30
0.0
 10
190.2405818093205
 20
640.7171460562962
 30
0.0
 10
189.3043820135236
 20
636.5014315738304
 30
0.0
 10
188.4739948845962
 20
632.0307842606129
 30
0.0
 10
187.808206525187
 20
627.4818142416481
 30
0.0
 10
187.3229894646123
 20
622.9285521730019
 30
0.0
 10
187.0178144811116
 20
618.3896374311093
 30
0.0
 10
186.895393055358
 20
613.7390256814423
 30
0.0
 10
186.9663086052169
 20
609.2217740426555
 30
0.0
 10
187.2039425669954
 20
604.9068063688217
 30
0.0
 10
187.5790237199685
 20
600.8024812630915
 30
0.0
 10
188.0963058346464
 20
596.7370349448811
 30
0.0
 10
188.955814651002
 20
591.4368514817933
 30
0.0
 10
190.308342847429
 20
585.0873834342831
 30
0.0
 10
191.9051380462705
 20
579.2314946910368
 30
0.0
 10
193.2645050689159
 20
574.8558690163064
 30
0.0
 10
194.3231156246836
 20
571.6990397451198
 30
0.0
 10
195.3624114733082
 20
568.7935625402235
 30
0.0
 10
196.3483229872216
 20
566.1826392989191
 30
0.0
 10
197.2496584788638
 20
563.8992455602954
 30
0.0
 10
198.0465581386221
 20
561.9516871478021
 30
0.0
 10
198.7154214633489
 20
560.3633423428444
 30
0.0
 10
199.2129697074327
 20
559.207413032033
 30
0.0
 10
199.5257087157203
 20
558.4905184173531
 30
0.0
 10
199.6749731428734
 20
558.1510996868191
 30
0.0
 10
199.6607913750956
 20
558.1833495456759
 30
0.0
 10
199.6562427314775
 20
558.1936933277046
 30
0.0
  0
LINE
  5
A3
330
1F
100
AcDbEntity
  8
0
  6
Continuous
 62
     7
370
    25
100
AcDbLine
 10
-50.3229731883
 20
908.1464400068
 30
0.0
 11
199.6770268117
 21
908.1464400068
 31
0.0
  0
LINE
  5
A4
330
1F
100
AcDbEntity
  8
0
  6
Continuous
 62
     7
370
    25
100
AcDbLine
 10
-50.3229731883
 20
318.1464400068
 30
0.0
 11
199.6770268117
 21
318.1464400068
 31
0.0
  0
LINE
  5
A5
330
1F
100
AcDbEntity
  8
0
  6
Continuous
 62
     7
370
    25
100
AcDbLine
 10
325.6770268117
 20
668.1464400068
 30
0.0
 11
325.6770268117
 21
558.1464400068
 31
0.0
  0
LINE
  5
A6
330
1F
100
AcDbEntity
  8
0
  6
Continuous
 62
     7
370
    25
100
AcDbLine
 10
432.6740745735
 20
-15.6137860013
 30
0.0
 11
1022.6740745735
 21
-15.6137860013
 31
0.0
  0
LINE
  5
A7
330
1F
100
AcDbEntity
  8
0
  6
Continuous
 62
     7
370
    25
100
AcDbLine
 10
1022.6740745735
 20
234.3862139987
 30
0.0
 11
432.6740745735
 21
234.3862139987
 31
0.0
  0
LINE
  5
A8
330
1F
100
AcDbEntity
  8
0
  6
Continuous
 62
     7
370
    25
100
AcDbLine
 10
1022.6740745735
 20
234.3862139987
 30
0.0
 11
1022.6740745735
 21
-15.6137860013
 31
0.0
  0
LINE
  5
A9
330
1F
100
AcDbEntity
  8
0
  6
Continuous
 62
     7
370
    25
100
AcDbLine
 10
432.6740745735
 20
234.3862139987
 30
0.0
 11
432.6740745735
 21
-15.6137860013
 31
0.0
  0
LINE
  5
AA
330
1F
100
AcDbEntity
  8
0
  6
Continuous
 62
     7
370
    25
100
AcDbLine
 10
-136.6086938616
 20
234.3862139987
 30
0.0
 11
-726.6086938616
 21
234.3862139987
 31
0.0
  0
LINE
  5
AB
330
1F
100
AcDbEntity
  8
0
  6
Continuous
 62
     7
370
    25
100
AcDbLine
 10
-726.6086938616
 20
-15.6137860013
 30
0.0
 11
-136.6086938616
 21
-15.6137860013
 31
0.0
  0
CIRCLE
  5
AC
330
1F
100
AcDbEntity
  8
0
  6
Continuous
 62
     7
370
    25
100
AcDbCircle
 10
-431.6086938616
 20
109.3862139987
 30
0.0
 40
45.00000000000006
  0
CIRCLE
  5
AD
330
1F
100
AcDbEntity
  8
0
  6
Continuous
 62
     7
370
    25
100
AcDbCircle
 10
-431.6086938616
 20
109.3862139987
 30
0.0
 40
55.0
  0
LINE
  5
AE
330
1F
100
AcDbEntity
  8
0
  6
Continuous
 62
     7
370
    25
100
AcDbLine
 10
-726.6086938616
 20
109.3862139987
 30
0.0
 11
-726.6086938616
 21
234.3862139987
 31
0.0
  0
LINE
  5
AF
330
1F
100
AcDbEntity
  8
0
  6
Continuous
 62
     7
370
    25
100
AcDbLine
 10
-726.6086938616
 20
-15.6137860013
 30
0.0
 11
-726.6086938616
 21
109.3862139987
 31
0.0
  0
LINE
  5
B0
330
1F
100
AcDbEntity
  8
0
  6
Continuous
 62
     7
370
    25
100
AcDbLine
 10
-136.6086938616
 20
109.3862139987
 30
0.0
 11
-136.6086938616
 21
234.3862139987
 31
0.0
  0
LINE
  5
B1
330
1F
100
AcDbEntity
  8
0
  6
Continuous
 62
     7
370
    25
100
AcDbLine
 10
-136.6086938616
 20
-15.6137860013
 30
0.0
 11
-136.6086938616
 21
109.3862139987
 31
0.0
  0
INSERT
  5
BD
330
1F
100
AcDbEntity
  8
FORMAT
100
AcDbBlockReference
  2
SW_CENTERMARKSYMBOL_1
 10
-431.6086938616
 20
109.3862139987
 30
0.0
  0
LINE
  5
BE
330
1F
100
AcDbEntity
  8
0
  6
Continuous
 62
     7
370
    25
100
AcDbLine
 10
1031.1036193075
 20
-401.0472014945
 30
0.0
 11
940.0268273821
 21
-348.4696886598
 31
0.0
  0
LINE
  5
BF
330
1F
100
AcDbEntity
  8
0
  6
Continuous
 62
     7
370
    25
100
AcDbLine
 10
830.0178872455
 20
-284.9628792994
 30
0.0
 11
613.9106184074
 21
-160.2068085068
 31
0.0
  0
LINE
  5
C0
330
1F
100
AcDbEntity
  8
0
  6
Continuous
 62
     7
370
    25
100
AcDbLine
 10
488.9207768279
 20
-376.719024102
 30
0.0
 11
906.113777728
 21
-617.5594170897
 31
0.0
  0
LINE
  5
C1
330
1F
100
AcDbEntity
  8
0
  6
Continuous
 62
     7
370
    25
100
AcDbLine
 10
871.5098308485
 20
-388.0237088277
 30
0.0
 11
964.993765293
 21
-334.0565821955
 31
0.0
  0
LINE
  5
C2
330
1F
100
AcDbEntity
  8
0
  6
Continuous
 62
     7
370
    25
100
AcDbLine
 10
909.998234998
 20
-238.7912073336
 30
0.0
 11
816.5149517491
 21
-292.7579580386
 31
0.0
  0
SPLINE
  5
C3
330
1F
100
AcDbEntity
  8
0
  6
Continuous
 62
     7
370
    25
100
AcDbSpline
210
0.0
220
0.0
230
1.0
 70
     8
 71
     3
 72
    35
 73
    31
 74
     0
 42
0.000000001
 43
0.00000001
 40
0.0
 40
0.0
 40
0.0
 40
0.0
 40
0.0329253981113292
 40
0.0664752283757966
 40
0.1000260246432503
 40
0.1342136192992228
 40
0.1671360863850977
 40
0.2006033865749594
 40
0.2340721685486185
 40
0.2680851035212361
 40
0.3026724484948392
 40
0.3378160200290748
 40
0.3729597058496844
 40
0.4086746719888513
 40
0.4450881247585163
 40
0.4817677618129077
 40
0.5193269604490001
 40
0.5572115202427136
 40
0.5916553151368823
 40
0.6268310886304926
 40
0.6620057543856248
 40
0.6979583913402384
 40
0.7295060414621466
 40
0.7616039173828824
 40
0.7937033043442248
 40
0.8263540263217951
 40
0.8911615334852542
 40
0.9575422267697611
 40
0.9929066147647307
 40
1.0
 40
1.0
 40
1.0
 40
1.0
 10
809.5096727507396
 20
-315.4063827342374
 30
0.0
 10
809.5226304104763
 20
-316.6025091374503
 30
0.0
 10
809.5487914727446
 20
-319.017446552969
 30
0.0
 10
809.7625581541022
 20
-322.8825165276213
 30
0.0
 10
810.1095619527663
 20
-326.9292152954603
 30
0.0
 10
810.5991371680806
 20
-331.071446261205
 30
0.0
 10
811.2286850725943
 20
-335.289979674671
 30
0.0
 10
811.9941730018533
 20
-339.5272987682427
 30
0.0
 10
812.9125291648592
 20
-343.8285766349232
 30
0.0
 10
813.9918515204967
 20
-348.1652957171689
 30
0.0
 10
815.2483786243051
 20
-352.529479444267
 30
0.0
 10
816.6879706589032
 20
-356.8650358225533
 30
0.0
 10
818.3211038414756
 20
-361.1383159473974
 30
0.0
 10
820.1627633289664
 20
-365.3192456332329
 30
0.0
 10
822.2325342758343
 20
-369.3779047864841
 30
0.0
 10
824.5515099280059
 20
-373.2806497263444
 30
0.0
 10
827.1255432486058
 20
-376.9647944809136
 30
0.0
 10
829.8714346816786
 20
-380.2652015796018
 30
0.0
 10
832.7599437506522
 20
-383.1652105084835
 30
0.0
 10
835.7556643399064
 20
-385.6521812140438
 30
0.0
 10
838.9576600729289
 20
-387.802849949573
 30
0.0
 10
842.1879232576707
 20
-389.4921704556587
 30
0.0
 10
845.4177507790542
 20
-390.7630240243105
 30
0.0
 10
848.585722615087
 20
-391.645395840325
 30
0.0
 10
851.8261859413798
 20
-392.1952384152734
 30
0.0
 10
856.1696674021598
 20
-392.4690572859197
 30
0.0
 10
861.6235955872743
 20
-391.9780765139583
 30
0.0
 10
866.8655403661559
 20
-390.3330726032298
 30
0.0
 10
870.126687301541
 20
-388.8628399577374
 30
0.0
 10
871.2986194891902
 20
-388.1216904690894
 30
0.0
 10
871.4944132354032
 20
-387.9978672339095
 30
0.0
  0
SPLINE
  5
C4
330
1F
100
AcDbEntity
  8
0
  6
Continuous
 62
     7
370
    25
100
AcDbSpline
210
0.0
220
0.0
230
1.0
 70
     8
 71
     3
 72
    17
 73
    13
 74
     0
 42
0.000000001
 43
0.00000001
 40
0.0
 40
0.0
 40
0.0
 40
0.0
 40
0.0249728886283936
 40
0.1334656177054564
 40
0.2427068132039186
 40
0.3543709995932557
 40
0.4669102510496472
 40
0.5736533936682157
 40
0.6812334991488856
 40
0.791565682244542
 40
0.9028954090147564
 40
1.0
 40
1.0
 40
1.0
 40
1.0
 10
816.5307661456214
 20
-292.7861236516125
 30
0.0
 10
816.4067243216789
 20
-292.8464998684804
 30
0.0
 10
815.7437926560573
 20
-293.1691757590788
 30
0.0
 10
814.7173184233369
 20
-294.0834522655222
 30
0.0
 10
813.4502911978534
 20
-295.5747689401218
 30
0.0
 10
812.3638859963332
 20
-297.474808895828
 30
0.0
 10
811.4593628326803
 20
-299.7180988760558
 30
0.0
 10
810.7360638138418
 20
-302.2836486774969
 30
0.0
 10
810.1784559447811
 20
-305.1589718870626
 30
0.0
 10
809.7818012102316
 20
-308.4037550427008
 30
0.0
 10
809.5493899742028
 20
-311.8272799066544
 30
0.0
 10
809.5222954466684
 20
-314.2688931830735
 30
0.0
 10
809.5096727507396
 20
-315.4063827342374
 30
0.0
  0
LWPOLYLINE
  5
C5
330
1F
100
AcDbEntity
  8
0
  6
Continuous
 62
     7
370
    25
100
AcDbPolyline
 90
      119
 70
   128
 43
0.0
 10
639.804045266
 20
-217.4374093155
 10
639.6787720787
 20
-212.0774682552
 10
639.3033076174
 20
-206.8773578734
 10
638.6787161769
 20
-201.8518184481
 10
637.8067682295
 20
-197.0150954167
 10
636.6899354064
 20
-192.3808989961
 10
635.3313834914
 20
-187.9623653197
 10
633.7349634478
 20
-183.7720192011
 10
631.9052005014
 20
-179.8217386317
 10
629.8472813142
 20
-176.122721111
 10
627.5670392817
 20
-172.685451906
 10
625.0709379977
 20
-169.5196743298
 10
622.3660529324
 20
-166.6343621227
 10
619.4600513765
 20
-164.0376940158
 10
616.3611707071
 20
-161.7370305469
 10
613.0781950382
 20
-159.7388931965
 10
609.6204303208
 20
-158.0489459022
 10
605.9976779649
 20
-156.671979003
 10
602.2202070556
 20
-155.6118956613
 10
598.2987252445
 20
-154.8717007985
 10
594.2443483979
 20
-154.4534925774
 10
590.0685690875
 20
-154.3584564545
 10
585.7832240135
 20
-154.5868618201
 10
581.4004604519
 20
-155.1380612343
 10
576.9327018224
 20
-156.0104922626
 10
572.3926124721
 20
-157.2016819044
 10
567.7930617776
 20
-158.7082536033
 10
563.147087665
 20
-160.525936818
 10
558.4678596528
 20
-162.6495791281
 10
553.7686415211
 20
-165.0731608387
 10
549.0627537142
 20
-167.789812044
 10
544.3635355825
 20
-170.7918321012
 10
539.6843075703
 20
-174.0707114581
 10
535.0383334577
 20
-177.6171557751
 10
530.4387827632
 20
-181.4211122703
 10
525.8986934129
 20
-185.4717982159
 10
521.4309347834
 20
-189.7577315024
 10
517.0481712218
 20
-194.2667631862
 10
512.7628261478
 20
-198.9861119272
 10
508.5870468374
 20
-203.9024002187
 10
504.5326699908
 20
-209.0016923072
 10
500.6111881797
 20
-214.2695336954
 10
496.8337172704
 20
-219.6909921146
 10
493.2109649145
 20
-225.2506998517
 10
489.7532001971
 20
-230.9328973113
 10
486.4702245282
 20
-236.7214776872
 10
483.3713438588
 20
-242.6000326194
 10
480.4653423029
 20
-248.5518987054
 10
477.7604572376
 20
-254.560204734
 10
475.2643559536
 20
-260.607919509
 10
472.9841139211
 20
-266.6779001259
 10
470.9261947339
 20
-272.752940565
 10
469.0964317875
 20
-278.8158204643
 10
467.5000117439
 20
-284.849353932
 10
466.1414598289
 20
-290.8364382619
 10
465.0246270058
 20
-296.7601024129
 10
464.1526790584
 20
-302.6035551156
 10
463.5280876179
 20
-308.3502324683
 10
463.1526231566
 20
-313.9838448897
 10
463.0273499693
 20
-319.4884232934
 10
463.1526231566
 20
-324.8483643537
 10
463.5280876179
 20
-330.0484747355
 10
464.1526790584
 20
-335.0740141608
 10
465.0246270058
 20
-339.9107371922
 10
466.1414598289
 20
-344.5449336128
 10
467.5000117439
 20
-348.9634672892
 10
469.0964317875
 20
-353.1538134078
 10
470.9261947339
 20
-357.1040939771
 10
472.9841139211
 20
-360.8031114978
 10
475.2643559536
 20
-364.2403807028
 10
477.7604572376
 20
-367.4061582791
 10
480.4653423029
 20
-370.2914704862
 10
483.3713438588
 20
-372.8881385931
 10
486.4702245282
 20
-375.188802062
 10
489.7532001971
 20
-377.1869394123
 10
493.2109649145
 20
-378.8768867067
 10
496.8337172704
 20
-380.2538536058
 10
500.6111881797
 20
-381.3139369475
 10
504.5326699908
 20
-382.0541318103
 10
508.5870468374
 20
-382.4723400315
 10
512.7628261478
 20
-382.5673761544
 10
517.0481712218
 20
-382.3389707888
 10
521.4309347834
 20
-381.7877713745
 10
525.8986934129
 20
-380.9153403462
 10
530.4387827632
 20
-379.7241507044
 10
535.0383334577
 20
-378.2175790056
 10
539.6843075703
 20
-376.3998957908
 10
544.3635355825
 20
-374.2762534807
 10
549.0627537142
 20
-371.8526717702
 10
553.7686415211
 20
-369.1360205649
 10
558.4678596528
 20
-366.1340005077
 10
563.147087665
 20
-362.8551211508
 10
567.7930617776
 20
-359.3086768338
 10
572.3926124721
 20
-355.5047203386
 10
576.9327018224
 20
-351.454034393
 10
581.4004604519
 20
-347.1681011065
 10
585.7832240135
 20
-342.6590694227
 10
590.0685690875
 20
-337.9397206816
 10
594.2443483979
 20
-333.0234323902
 10
598.2987252445
 20
-327.9241403017
 10
602.2202070556
 20
-322.6562989134
 10
605.9976779649
 20
-317.2348404943
 10
609.6204303208
 20
-311.6751327571
 10
613.0781950382
 20
-305.9929352976
 10
616.3611707071
 20
-300.2043549217
 10
619.4600513765
 20
-294.3257999895
 10
622.3660529324
 20
-288.3739339035
 10
625.0709379977
 20
-282.3656278749
 10
627.5670392817
 20
-276.3179130999
 10
629.8472813142
 20
-270.247932483
 10
631.9052005014
 20
-264.1728920438
 10
633.7349634478
 20
-258.1100121445
 10
635.3313834914
 20
-252.0764786769
 10
636.6899354064
 20
-246.089394347
 10
637.8067682295
 20
-240.1657301959
 10
638.6787161769
 20
-234.3222774933
 10
639.3033076174
 20
-228.5756001406
 10
639.6787720787
 20
-222.9419877192
 10
639.804045266
 20
-217.4374093155
  0
LWPOLYLINE
  5
C6
330
1F
100
AcDbEntity
  8
0
  6
Continuous
 62
     7
370
    25
100
AcDbPolyline
 90
       16
 70
   128
 43
0.0
 10
1056.997046166
 20
-458.2778023032
 10
1056.8717729788
 20
-452.9178612429
 10
1056.4963085175
 20
-447.7177508611
 10
1055.871717077
 20
-442.6922114358
 10
1054.9997691296
 20
-437.8554884044
 10
1053.8829363064
 20
-433.2212919838
 10
1052.5243843915
 20
-428.8027583074
 10
1050.9279643478
 20
-424.6124121888
 10
1049.0982014015
 20
-420.6621316194
 10
1047.0402822143
 20
-416.9631140987
 10
1044.7600401818
 20
-413.5258448937
 10
1042.2639388978
 20
-410.3600673175
 10
1039.5590538325
 20
-407.4747551104
 10
1036.6530522766
 20
-404.8780870035
 10
1033.5541716072
 20
-402.5774235346
 10
1031.1036193075
 20
-401.0472014945
  0
LWPOLYLINE
  5
C7
330
1F
100
AcDbEntity
  8
0
  6
Continuous
 62
     7
370
    25
100
AcDbPolyline
 90
       46
 70
   128
 43
0.0
 10
906.113777728
 20
-617.5594170897
 10
906.9462010972
 20
-618.0273324
 10
910.4039658145
 20
-619.7172796944
 10
914.0267181705
 20
-621.0942465935
 10
917.8041890798
 20
-622.1543299352
 10
921.7256708909
 20
-622.894524798
 10
925.7800477375
 20
-623.3127330192
 10
929.9558270478
 20
-623.4077691421
 10
934.2411721219
 20
-623.1793637765
 10
938.6239356835
 20
-622.6281643622
 10
943.091694313
 20
-621.7557333339
 10
947.6317836633
 20
-620.5645436921
 10
952.2313343578
 20
-619.0579719933
 10
956.8773084704
 20
-617.2402887785
 10
961.5565364826
 20
-615.1166464684
 10
966.2557546143
 20
-612.6930647579
 10
970.9616424211
 20
-609.9764135526
 10
975.6608605528
 20
-606.9743934954
 10
980.3400885651
 20
-603.6955141385
 10
984.9860626776
 20
-600.1490698215
 10
989.5856133722
 20
-596.3451133263
 10
994.1257027224
 20
-592.2944273807
 10
998.593461352
 20
-588.0084940942
 10
1002.9762249135
 20
-583.4994624104
 10
1007.2615699876
 20
-578.7801136693
 10
1011.437349298
 20
-573.8638253779
 10
1015.4917261445
 20
-568.7645332894
 10
1019.4132079556
 20
-563.4966919011
 10
1023.190678865
 20
-558.075233482
 10
1026.8134312209
 20
-552.5155257448
 10
1030.2711959382
 20
-546.8333282853
 10
1033.5541716072
 20
-541.0447479094
 10
1036.6530522766
 20
-535.1661929772
 10
1039.5590538325
 20
-529.2143268912
 10
1042.2639388978
 20
-523.2060208626
 10
1044.7600401818
 20
-517.1583060876
 10
1047.0402822143
 20
-511.0883254707
 10
1049.0982014015
 20
-505.0132850315
 10
1050.9279643478
 20
-498.9504051322
 10
1052.5243843915
 20
-492.9168716646
 10
1053.8829363064
 20
-486.9297873347
 10
1054.9997691296
 20
-481.0061231836
 10
1055.871717077
 20
-475.162670481
 10
1056.4963085175
 20
-469.4159931283
 10
1056.8717729788
 20
-463.7823807069
 10
1056.997046166
 20
-458.2778023032
  0
LWPOLYLINE
  5
C8
330
1F
100
AcDbEntity
  8
0
  6
Continuous
 62
     7
370
    25
100
AcDbPolyline
 90
      108
 70
   128
 43
0.0
 10
623.752721333
 20
-226.7036413847
 10
623.6280409799
 20
-221.8733164843
 10
623.2544297197
 20
-217.2035955861
 10
622.6331754676
 20
-212.7105761853
 10
621.7664198159
 20
-208.4097466506
 10
620.6571506508
 20
-204.3159328325
 10
619.3091918529
 20
-200.4432469552
 10
617.7271901155
 20
-196.8050389691
 10
615.9165989263
 20
-193.413850531
 10
613.8836597681
 20
-190.2813717699
 10
611.6353806035
 20
-187.4184009891
 10
609.1795117164
 20
-184.8348074418
 10
606.5245189956
 20
-182.5394973102
 10
603.6795547512
 20
-180.540383004
 10
600.6544261642
 20
-178.8443558842
 10
597.4595614794
 20
-177.4572625077
 10
594.1059740575
 20
-176.3838844727
 10
590.6052244089
 20
-175.6279219357
 10
586.9693803428
 20
-175.1919808561
 10
583.2109753671
 20
-175.0775640131
 10
579.3429654822
 20
-175.2850658253
 10
575.3786845195
 20
-175.813770991
 10
571.3317981768
 20
-176.6618569539
 10
567.2162569095
 20
-177.8264001861
 10
563.0462478412
 20
-179.3033862656
 10
558.8361458568
 20
-181.0877237157
 10
554.6004640501
 20
-183.1732615554
 10
550.3538036937
 20
-185.5528105037
 10
546.1108039057
 20
-188.2181677625
 10
541.8860911853
 20
-191.1601452932
 10
537.6942289924
 20
-194.3686014897
 10
533.5496675444
 20
-197.8324761388
 10
529.4666940033
 20
-201.5398285471
 10
525.4593832246
 20
-205.4778787028
 10
521.5415492387
 20
-209.6330513312
 10
517.7266976311
 20
-213.9910226914
 10
514.0279789855
 20
-218.5367699534
 10
510.4581435514
 20
-223.2546229846
 10
507.0294972909
 20
-228.1283183683
 10
503.753859458
 20
-233.1410554669
 10
500.642521855
 20
-238.2755543371
 10
497.7062099071
 20
-243.5141152977
 10
494.9550456899
 20
-248.8386799437
 10
492.3985130363
 20
-254.2308933979
 10
490.0454248441
 20
-259.6721675834
 10
487.9038926957
 20
-265.1437453008
 10
485.981298896
 20
-270.6267648883
 10
484.2842710243
 20
-276.1023252415
 10
482.818659087
 20
-281.5515509694
 10
481.5895153522
 20
-286.9556574622
 10
480.601076933
 20
-292.2960156453
 10
479.8567511814
 20
-297.5542161976
 10
479.3591039423
 20
-302.7121330126
 10
479.109850709
 20
-307.7519856824
 10
479.109850709
 20
-312.656400791
 10
479.3591039423
 20
-317.4084718033
 10
479.8567511814
 20
-321.9918173462
 10
480.601076933
 20
-326.3906376781
 10
481.5895153522
 20
-330.589769154
 10
482.818659087
 20
-334.5747364978
 10
484.2842710243
 20
-338.3318027017
 10
485.981298896
 20
-341.8480163799
 10
487.9038926957
 20
-345.1112564157
 10
490.0454248441
 20
-348.1102737445
 10
492.3985130363
 20
-350.8347301323
 10
494.9550456899
 20
-353.2752338136
 10
497.7062099071
 20
-355.4233718666
 10
500.642521855
 20
-357.2717392144
 10
503.753859458
 20
-358.8139641519
 10
507.0294972909
 20
-360.0447303102
 10
510.4581435514
 20
-360.9597949834
 10
514.0279789855
 20
-361.556003754
 10
517.7266976311
 20
-361.8313013668
 10
521.5415492387
 20
-361.784738814
 10
525.4593832246
 20
-361.4164766064
 10
529.4666940033
 20
-360.7277842199
 10
533.5496675444
 20
-359.7210357201
 10
537.6942289924
 20
-358.3997015774
 10
541.8860911853
 20
-356.7683367045
 10
546.1108039057
 20
-354.832564754
 10
550.3538036937
 20
-352.5990587328
 10
554.6004640501
 20
-350.0755179989
 10
558.8361458568
 20
-347.2706417199
 10
563.0462478412
 20
-344.1940988856
 10
567.2162569095
 20
-340.8564949762
 10
571.3317981768
 20
-337.2693354041
 10
575.3786845195
 20
-333.4449858512
 10
579.3429654822
 20
-329.3966296429
 10
583.2109753671
 20
-325.1382223016
 10
586.9693803428
 20
-320.6844434395
 10
590.6052244089
 20
-316.0506461551
 10
594.1059740575
 20
-311.2528041076
 10
597.4595614794
 20
-306.3074564524
 10
600.6544261642
 20
-301.2316508274
 10
603.6795547512
 20
-296.0428845861
 10
606.5245189956
 20
-290.7590444806
 10
609.1795117164
 20
-285.3983450023
 10
611.6353806035
 20
-279.979265593
 10
613.8836597681
 20
-274.520486942
 10
615.9165989263
 20
-269.04082659
 10
617.7271901155
 20
-263.5591740616
 10
619.3091918529
 20
-258.0944257486
 10
620.6571506508
 20
-252.6654197704
 10
621.7664198159
 20
-247.2908710355
 10
622.6331754676
 20
-241.9893067266
 10
623.2544297197
 20
-236.7790024342
 10
623.6280409799
 20
-231.6779191567
 10
623.752721333
 20
-226.7036413847
  0
LWPOLYLINE
  5
C9
330
1F
100
AcDbEntity
  8
0
  6
Continuous
 62
     7
370
    25
100
AcDbPolyline
 90
       72
 70
   128
 43
0.0
 10
969.3158052989
 20
-304.7930772805
 10
969.1912887398
 20
-301.4737270947
 10
968.8187135734
 20
-298.0365915656
 10
968.2009957055
 20
-294.5085709389
 10
967.342969616
 20
-290.9172767595
 10
966.2513505223
 20
-287.2908157737
 10
964.934681824
 20
-283.6575699556
 10
963.4032682389
 20
-280.0459743798
 10
961.6690951545
 20
-276.4842946786
 10
959.7457348266
 20
-273.0004058246
 10
957.6482401575
 20
-269.6215739718
 10
955.3930268869
 20
-266.3742430606
 10
952.9977451164
 20
-263.2838278584
 10
950.4811411734
 20
-260.3745150541
 10
947.862910896
 20
-257.6690739652
 10
945.1635454859
 20
-255.1886783362
 10
942.4041711376
 20
-252.9527406261
 10
939.6063836965
 20
-250.9787600789
 10
936.7920796427
 20
-249.282185769
 10
933.9832847213
 20
-247.8762956905
 10
931.2019815608
 20
-246.7720928395
 10
928.4699376294
 20
-245.9782191006
 10
925.8085348753
 20
-245.5008876119
 10
923.2386023833
 20
-245.3438341397
 10
920.7802533597
 20
-245.5082878403
 10
918.4527277188
 20
-245.9929616405
 10
916.2742415044
 20
-246.7940623107
 10
914.2618443249
 20
-247.9053201519
 10
912.4312859168
 20
-249.3180380649
 10
910.7968928814
 20
-251.0211596166
 10
909.3714565604
 20
-253.0013555716
 10
908.1661329257
 20
-255.2431282117
 10
907.1903552688
 20
-257.7289326266
 10
906.451760373
 20
-260.4393140262
 10
905.9561287447
 20
-263.3530600013
 10
905.7073393735
 20
-266.4473665391
 10
905.7073393735
 20
-269.6980164954
 10
905.9561287447
 20
-273.0795691269
 10
906.451760373
 20
-276.5655591994
 10
907.1903552688
 20
-280.1287041142
 10
908.1661329257
 20
-283.7411174311
 10
909.3714565604
 20
-287.3745271181
 10
910.7968928814
 20
-291.0004968181
 10
912.4312859168
 20
-294.5906484017
 10
914.2618443249
 20
-298.1168840653
 10
916.2742415044
 20
-301.5516062337
 10
918.4527277188
 20
-304.8679335489
 10
920.7802533597
 20
-308.0399112532
 10
923.2386023833
 20
-311.0427143205
 10
925.8085348753
 20
-313.8528417453
 10
928.4699376294
 20
-316.4483004704
 10
931.2019815608
 20
-318.8087775123
 10
933.9832847213
 20
-320.9157989377
 10
936.7920796427
 20
-322.752874447
 10
939.6063836965
 20
-324.3056264337
 10
942.4041711376
 20
-325.5619025081
 10
945.1635454859
 20
-326.5118706066
 10
947.862910896
 20
-327.1480959409
 10
950.4811411734
 20
-327.4655991851
 10
952.9977451164
 20
-327.4618954458
 10
955.3930268869
 20
-327.1370137098
 10
957.6482401575
 20
-326.4934966171
 10
959.7457348266
 20
-325.5363805616
 10
961.6690951545
 20
-324.273156274
 10
963.4032682389
 20
-322.7137101972
 10
964.934681824
 20
-320.8702471111
 10
966.2513505223
 20
-318.7571946138
 10
967.342969616
 20
-316.3910902061
 10
968.2009957055
 20
-313.790451863
 10
968.8187135734
 20
-310.9756331057
 10
969.1912887398
 20
-307.9686637073
 10
969.3158052989
 20
-304.7930772805
  0
LWPOLYLINE
  5
CA
330
1F
100
AcDbEntity
  8
0
  6
Continuous
 62
     7
370
    25
100
AcDbPolyline
 90
       79
 70
   128
 43
0.0
 10
976.3868731108
 20
-308.8751178397
 10
976.2607619933
 20
-305.188582387
 10
975.8832465201
 20
-301.3803507345
 10
975.2567750237
 20
-297.4751207257
 10
974.3854104122
 20
-293.4982192759
 10
973.2748038195
 20
-289.475438117
 10
971.9321579555
 20
-285.4328665285
 10
970.3661803939
 20
-281.3967221384
 10
968.5870271
 20
-277.3931808919
 10
966.6062365658
 20
-273.4482072902
 10
964.4366549778
 20
-269.5873860009
 10
962.0923529053
 20
-265.8357559317
 10
959.5885340467
 20
-262.2176478431
 10
956.9414366281
 20
-258.7565265545
 10
954.1682280922
 20
-255.4748387656
 10
951.2868937603
 20
-252.393867481
 10
948.3161201914
 20
-249.5335939817
 10
945.2751739919
 20
-246.9125682389
 10
942.183776865
 20
-244.5477886105
 10
939.0619777071
 20
-242.4545915996
 10
935.9300225839
 20
-240.6465523921
 10
932.808223426
 20
-239.1353968162
 10
929.7168262991
 20
-237.9309252955
 10
926.6758800996
 20
-237.0409492901
 10
923.7051065307
 20
-236.4712406359
 10
920.8237721988
 20
-236.2254941122
 10
918.0505636629
 20
-236.3053034794
 10
915.4034662443
 20
-236.7101511431
 10
912.8996473858
 20
-237.437411511
 10
910.5553453132
 20
-238.4823680205
 10
908.3857637253
 20
-239.8382437275
 10
906.404973191
 20
-241.4962452579
 10
904.6258198971
 20
-243.4456198356
 10
903.0598423355
 20
-245.6737250182
 10
901.7171964715
 20
-248.1661106888
 10
900.6065898788
 20
-250.9066127699
 10
899.7352252673
 20
-253.8774580537
 10
899.1087537709
 20
-257.0593794688
 10
898.7312382977
 20
-260.4317410336
 10
898.6051271802
 20
-263.9726716894
 10
898.7312382977
 20
-267.6592071421
 10
899.1087537709
 20
-271.4674387946
 10
899.7352252673
 20
-275.3726688033
 10
900.6065898788
 20
-279.3495702531
 10
901.7171964715
 20
-283.372351412
 10
903.0598423355
 20
-287.4149230005
 10
904.6258198971
 20
-291.4510673906
 10
906.404973191
 20
-295.4546086372
 10
908.3857637253
 20
-299.3995822389
 10
910.5553453132
 20
-303.2604035282
 10
912.8996473858
 20
-307.0120335974
 10
915.4034662443
 20
-310.630141686
 10
918.0505636629
 20
-314.0912629746
 10
920.8237721988
 20
-317.3729507635
 10
923.7051065307
 20
-320.4539220481
 10
926.6758800996
 20
-323.3141955474
 10
929.7168262991
 20
-325.9352212901
 10
932.808223426
 20
-328.3000009186
 10
935.9300225839
 20
-330.3931979295
 10
939.0619777071
 20
-332.2012371369
 10
942.183776865
 20
-333.7123927129
 10
945.2751739919
 20
-334.9168642336
 10
948.3161201914
 20
-335.8068402389
 10
951.2868937603
 20
-336.3765488931
 10
954.1682280922
 20
-336.6222954169
 10
956.9414366281
 20
-336.5424860497
 10
959.5885340467
 20
-336.1376383859
 10
962.0923529053
 20
-335.410378018
 10
964.4366549778
 20
-334.3654215086
 10
966.6062365658
 20
-333.0095458015
 10
968.5870271
 20
-331.3515442711
 10
970.3661803939
 20
-329.4021696935
 10
971.9321579555
 20
-327.1740645108
 10
973.2748038195
 20
-324.6816788402
 10
974.3854104122
 20
-321.9411767592
 10
975.2567750237
 20
-318.9703314753
 10
975.8832465201
 20
-315.7884100603
 10
976.2607619933
 20
-312.4160484954
 10
976.3868731108
 20
-308.8751178397
  0
ENDSEC
  0
SECTION
  2
OBJECTS
  0
DICTIONARY
  5
C
330
0
100
AcDbDictionary
281
     1
  3
ACAD_GROUP
350
D
  3
ACAD_LAYOUT
350
1A
  3
ACAD_MLINESTYLE
350
17
  3
ACAD_PLOTSETTINGS
350
19
  3
ACAD_PLOTSTYLENAME
350
E
  3
ACAD_SCALELIST
350
47
  0
DICTIONARY
  5
D
102
{ACAD_REACTORS
330
C
102
}
330
C
100
AcDbDictionary
281
     1
  0
DICTIONARY
  5
1A
102
{ACAD_REACTORS
330
C
102
}
330
C
100
AcDbDictionary
281
     1
  3
Layout1
350
1E
  3
Layout2
350
26
  3
Model
350
22
  0
DICTIONARY
  5
17
102
{ACAD_REACTORS
330
C
102
}
330
C
100
AcDbDictionary
281
     1
  3
Standard
350
18
  0
DICTIONARY
  5
19
102
{ACAD_REACTORS
330
C
102
}
330
C
100
AcDbDictionary
281
     1
  0
ACDBDICTIONARYWDFLT
  5
E
102
{ACAD_REACTORS
330
C
102
}
330
C
100
AcDbDictionary
281
     1
  3
Normal
350
F
100
AcDbDictionaryWithDefault
340
F
  0
DICTIONARY
  5
47
102
{ACAD_REACTORS
330
C
102
}
330
C
100
AcDbDictionary
281
     1
  3
A0
350
48
  3
A1
350
49
  3
A2
350
4A
  3
A3
350
4B
  3
A4
350
4C
  3
A5
350
4D
  3
A6
350
4E
  3
A7
350
4F
  3
A8
350
50
  3
A9
350
51
  3
B0
350
52
  3
B1
350
53
  3
B2
350
54
  3
B3
350
55
  3
B4
350
56
  3
B5
350
57
  3
B6
350
58
  3
B7
350
59
  3
B8
350
5A
  3
B9
350
5B
  3
C0
350
5C
  3
C1
350
5D
  3
C2
350
5E
  3
C3
350
5F
  3
C4
350
60
  3
C5
350
61
  3
C6
350
62
  3
C7
350
63
  3
C8
350
64
  3
C9
350
65
  3
D0
350
66
  3
D1
350
67
  3
D2
350
68
  0
LAYOUT
  5
1E
102
{ACAD_REACTORS
330
1A
102
}
330
1A
100
AcDbPlotSettings
  1

  2
none_device
  4

  6

 40
0.0
 41
0.0
 42
0.0
 43
0.0
 44
0.0
 45
0.0
 46
0.0
 47
0.0
 48
0.0
 49
0.0
140
0.0
141
0.0
142
1.0
143
1.0
 70
   688
 72
     1
 73
     0
 74
     5
  7

 75
    16
147
1.0
148
0.0
149
0.0
100
AcDbLayout
  1
Layout1
 70
     1
 71
     1
 10
0.0
 20
0.0
 11
420.0
 21
297.0
 12
0.0
 22
0.0
 32
0.0
 14
1.0000000000E+20
 24
1.0000000000E+20
 34
1.0000000000E+20
 15
-1.0000000000E+20
 25
-1.0000000000E+20
 35
-1.0000000000E+20
146
0.0
 13
0.0
 23
0.0
 33
0.0
 16
1.0
 26
0.0
 36
0.0
 17
0.0
 27
1.0
 37
0.0
 76
     0
330
1B
  0
LAYOUT
  5
26
102
{ACAD_REACTORS
330
1A
102
}
330
1A
100
AcDbPlotSettings
  1

  2
none_device
  4

  6

 40
0.0
 41
0.0
 42
0.0
 43
0.0
 44
0.0
 45
0.0
 46
0.0
 47
0.0
 48
0.0
 49
0.0
140
0.0
141
0.0
142
1.0
143
1.0
 70
   688
 72
     1
 73
     0
 74
     5
  7

 75
    16
147
1.0
148
0.0
149
0.0
100
AcDbLayout
  1
Layout2
 70
     1
 71
     2
 10
0.0
 20
0.0
 11
0.0
 21
0.0
 12
0.0
 22
0.0
 32
0.0
 14
0.0
 24
0.0
 34
0.0
 15
0.0
 25
0.0
 35
0.0
146
0.0
 13
0.0
 23
0.0
 33
0.0
 16
1.0
 26
0.0
 36
0.0
 17
0.0
 27
1.0
 37
0.0
 76
     0
330
23
  0
LAYOUT
  5
22
102
{ACAD_REACTORS
330
1A
102
}
330
1A
100
AcDbPlotSettings
  1

  2
none_device
  4
Letter_(8.50_x_11.00_Inches)
  6

 40
6.35
 41
6.35
 42
6.35000508
 43
6.35000508
 44
215.9
 45
279.4
 46
0.0
 47
0.0
 48
0.0
 49
0.0
140
0.0
141
0.0
142
1.0
143
1.0
 70
  1712
 72
     1
 73
     0
 74
     0
  7

 75
     0
147
1.0
148
0.0
149
0.0
100
AcDbLayout
  1
Model
 70
     1
 71
     0
 10
0.0
 20
0.0
 11
279.4
 21
215.9
 12
0.0
 22
0.0
 32
0.0
 14
0.0
 24
0.0
 34
0.0
 15
279.4
 25
215.9
 35
0.0
146
0.0
 13
0.0
 23
0.0
 33
0.0
 16
1.0
 26
0.0
 36
0.0
 17
0.0
 27
1.0
 37
0.0
 76
     0
330
1F
331
29
  0
MLINESTYLE
  5
18
102
{ACAD_REACTORS
330
17
102
}
330
17
100
AcDbMlineStyle
  2
Standard
 70
     0
  3

 62
   256
 51
90.0
 52
90.0
 71
     2
 49
0.5
 62
   256
  6
BYLAYER
 49
-0.5
 62
   256
  6
BYLAYER
  0
ACDBPLACEHOLDER
  5
F
102
{ACAD_REACTORS
330
E
102
}
330
E
  0
SCALE
  5
48
102
{ACAD_REACTORS
330
47
102
}
330
47
100
AcDbScale
 70
     0
300
1:1
140
1.0
141
1.0
290
     1
  0
SCALE
  5
49
102
{ACAD_REACTORS
330
47
102
}
330
47
100
AcDbScale
 70
     0
300
1:2
140
1.0
141
2.0
290
     0
  0
SCALE
  5
4A
102
{ACAD_REACTORS
330
47
102
}
330
47
100
AcDbScale
 70
     0
300
1:4
140
1.0
141
4.0
290
     0
  0
SCALE
  5
4B
102
{ACAD_REACTORS
330
47
102
}
330
47
100
AcDbScale
 70
     0
300
1:5
140
1.0
141
5.0
290
     0
  0
SCALE
  5
4C
102
{ACAD_REACTORS
330
47
102
}
330
47
100
AcDbScale
 70
     0
300
1:8
140
1.0
141
8.0
290
     0
  0
SCALE
  5
4D
102
{ACAD_REACTORS
330
47
102
}
330
47
100
AcDbScale
 70
     0
300
1:10
140
1.0
141
10.0
290
     0
  0
SCALE
  5
4E
102
{ACAD_REACTORS
330
47
102
}
330
47
100
AcDbScale
 70
     0
300
1:16
140
1.0
141
16.0
290
     0
  0
SCALE
  5
4F
102
{ACAD_REACTORS
330
47
102
}
330
47
100
AcDbScale
 70
     0
300
1:20
140
1.0
141
20.0
290
     0
  0
SCALE
  5
50
102
{ACAD_REACTORS
330
47
102
}
330
47
100
AcDbScale
 70
     0
300
1:30
140
1.0
141
30.0
290
     0
  0
SCALE
  5
51
102
{ACAD_REACTORS
330
47
102
}
330
47
100
AcDbScale
 70
     0
300
1:40
140
1.0
141
40.0
290
     0
  0
SCALE
  5
52
102
{ACAD_REACTORS
330
47
102
}
330
47
100
AcDbScale
 70
     0
300
1:50
140
1.0
141
50.0
290
     0
  0
SCALE
  5
53
102
{ACAD_REACTORS
330
47
102
}
330
47
100
AcDbScale
 70
     0
300
1:100
140
1.0
141
100.0
290
     0
  0
SCALE
  5
54
102
{ACAD_REACTORS
330
47
102
}
330
47
100
AcDbScale
 70
     0
300
2:1
140
2.0
141
1.0
290
     0
  0
SCALE
  5
55
102
{ACAD_REACTORS
330
47
102
}
330
47
100
AcDbScale
 70
     0
300
4:1
140
4.0
141
1.0
290
     0
  0
SCALE
  5
56
102
{ACAD_REACTORS
330
47
102
}
330
47
100
AcDbScale
 70
     0
300
8:1
140
8.0
141
1.0
290
     0
  0
SCALE
  5
57
102
{ACAD_REACTORS
330
47
102
}
330
47
100
AcDbScale
 70
     0
300
10:1
140
10.0
141
1.0
290
     0
  0
SCALE
  5
58
102
{ACAD_REACTORS
330
47
102
}
330
47
100
AcDbScale
 70
     0
300
100:1
140
100.0
141
1.0
290
     0
  0
SCALE
  5
59
102
{ACAD_REACTORS
330
47
102
}
330
47
100
AcDbScale
 70
     0
300
1/128" = 1'-0"
140
0.0078125
141
12.0
290
     0
  0
SCALE
  5
5A
102
{ACAD_REACTORS
330
47
102
}
330
47
100
AcDbScale
 70
     0
300
1/64" = 1'-0"
140
0.015625
141
12.0
290
     0
  0
SCALE
  5
5B
102
{ACAD_REACTORS
330
47
102
}
330
47
100
AcDbScale
 70
     0
300
1/32" = 1'-0"
140
0.03125
141
12.0
290
     0
  0
SCALE
  5
5C
102
{ACAD_REACTORS
330
47
102
}
330
47
100
AcDbScale
 70
     0
300
1/16" = 1'-0"
140
0.0625
141
12.0
290
     0
  0
SCALE
  5
5D
102
{ACAD_REACTORS
330
47
102
}
330
47
100
AcDbScale
 70
     0
300
3/32" = 1'-0"
140
0.09375
141
12.0
290
     0
  0
SCALE
  5
5E
102
{ACAD_REACTORS
330
47
102
}
330
47
100
AcDbScale
 70
     0
300
1/8" = 1'-0"
140
0.125
141
12.0
290
     0
  0
SCALE
  5
5F
102
{ACAD_REACTORS
330
47
102
}
330
47
100
AcDbScale
 70
     0
300
3/16" = 1'-0"
140
0.1875
141
12.0
290
     0
  0
SCALE
  5
60
102
{ACAD_REACTORS
330
47
102
}
330
47
100
AcDbScale
 70
     0
300
1/4" = 1'-0"
140
0.25
141
12.0
290
     0
  0
SCALE
  5
61
102
{ACAD_REACTORS
330
47
102
}
330
47
100
AcDbScale
 70
     0
300
3/8" = 1'-0"
140
0.375
141
12.0
290
     0
  0
SCALE
  5
62
102
{ACAD_REACTORS
330
47
102
}
330
47
100
AcDbScale
 70
     0
300
1/2" = 1'-0"
140
0.5
141
12.0
290
     0
  0
SCALE
  5
63
102
{ACAD_REACTORS
330
47
102
}
330
47
100
AcDbScale
 70
     0
300
3/4" = 1'-0"
140
0.75
141
12.0
290
     0
  0
SCALE
  5
64
102
{ACAD_REACTORS
330
47
102
}
330
47
100
AcDbScale
 70
     0
300
1" = 1'-0"
140
1.0
141
12.0
290
     0
  0
SCALE
  5
65
102
{ACAD_REACTORS
330
47
102
}
330
47
100
AcDbScale
 70
     0
300
1-1/2" = 1'-0"
140
1.5
141
12.0
290
     0
  0
SCALE
  5
66
102
{ACAD_REACTORS
330
47
102
}
330
47
100
AcDbScale
 70
     0
300
3" = 1'-0"
140
3.0
141
12.0
290
     0
  0
SCALE
  5
67
102
{ACAD_REACTORS
330
47
102
}
330
47
100
AcDbScale
 70
     0
300
6" = 1'-0"
140
6.0
141
12.0
290
     0
  0
SCALE
  5
68
102
{ACAD_REACTORS
330
47
102
}
330
47
100
AcDbScale
 70
     0
300
1'-0" = 1'-0"
140
12.0
141
12.0
290
     0
  0
ENDSEC
  0
EOF
